  0
SECTION
  2
HEADER
  9
$ACADVER
  1
AC1015
  9
$ACADMAINTVER
 70
     6
  9
$DWGCODEPAGE
  3
ANSI_1254
  9
$INSBASE
 10
0.0
 20
0.0
 30
0.0
  9
$EXTMIN
 10
0.0
 20
0.0
 30
0.0
  9
$EXTMAX
 10
279.4
 20
215.9
 30
0.0
  9
$LIMMIN
 10
0.0
 20
0.0
  9
$LIMMAX
 10
279.4
 20
215.9
  9
$ORTHOMODE
 70
     0
  9
$REGENMODE
 70
     1
  9
$FILLMODE
 70
     1
  9
$QTEXTMODE
 70
     0
  9
$MIRRTEXT
 70
     1
  9
$LTSCALE
 40
1.0
  9
$ATTMODE
 70
     1
  9
$TEXTSIZE
 40
3.5
  9
$TRACEWID
 40
1.0
  9
$TEXTSTYLE
  7
Standard
  9
$CLAYER
  8
0
  9
$CELTYPE
  6
ByLayer
  9
$CECOLOR
 62
   256
  9
$CELTSCALE
 40
1.0
  9
$DISPSILH
 70
     0
  9
$DIMSCALE
 40
1.0
  9
$DIMASZ
 40
3.5
  9
$DIMEXO
 40
1.0
  9
$DIMDLI
 40
3.75
  9
$DIMRND
 40
0.0
  9
$DIMDLE
 40
0.0
  9
$DIMEXE
 40
1.0
  9
$DIMTP
 40
0.0
  9
$DIMTM
 40
0.0
  9
$DIMTXT
 40
3.5
  9
$DIMCEN
 40
2.5
  9
$DIMTSZ
 40
0.0
  9
$DIMTOL
 70
     0
  9
$DIMLIM
 70
     0
  9
$DIMTIH
 70
     1
  9
$DIMTOH
 70
     1
  9
$DIMSE1
 70
     0
  9
$DIMSE2
 70
     0
  9
$DIMTAD
 70
     1
  9
$DIMZIN
 70
     0
  9
$DIMBLK
  1

  9
$DIMASO
 70
     1
  9
$DIMSHO
 70
     1
  9
$DIMPOST
  1

  9
$DIMAPOST
  1

  9
$DIMALT
 70
     0
  9
$DIMALTD
 70
     3
  9
$DIMALTF
 40
0.0393700787
  9
$DIMLFAC
 40
1.0
  9
$DIMTOFL
 70
     1
  9
$DIMTVP
 40
0.0
  9
$DIMTIX
 70
     0
  9
$DIMSOXD
 70
     0
  9
$DIMSAH
 70
     0
  9
$DIMBLK1
  1

  9
$DIMBLK2
  1

  9
$DIMSTYLE
  2
ISO-25
  9
$DIMCLRD
 70
     0
  9
$DIMCLRE
 70
     0
  9
$DIMCLRT
 70
     0
  9
$DIMTFAC
 40
1.0
  9
$DIMGAP
 40
1.524
  9
$DIMJUST
 70
     0
  9
$DIMSD1
 70
     0
  9
$DIMSD2
 70
     0
  9
$DIMTOLJ
 70
     0
  9
$DIMTZIN
 70
     0
  9
$DIMALTZ
 70
     0
  9
$DIMALTTZ
 70
     0
  9
$DIMUPT
 70
     0
  9
$DIMDEC
 70
     2
  9
$DIMTDEC
 70
     2
  9
$DIMALTU
 70
     2
  9
$DIMALTTD
 70
     3
  9
$DIMTXSTY
  7
Standard
  9
$DIMAUNIT
 70
     0
  9
$DIMADEC
 70
     2
  9
$DIMALTRND
 40
0.0
  9
$DIMAZIN
 70
     0
  9
$DIMDSEP
 70
    44
  9
$DIMATFIT
 70
     3
  9
$DIMFRAC
 70
     0
  9
$DIMLDRBLK
  1

  9
$DIMLUNIT
 70
     2
  9
$DIMLWD
 70
    -2
  9
$DIMLWE
 70
    -2
  9
$DIMTMOVE
 70
     0
  9
$LUNITS
 70
     2
  9
$LUPREC
 70
     2
  9
$SKETCHINC
 40
1.0
  9
$FILLETRAD
 40
10.0
  9
$AUNITS
 70
     0
  9
$AUPREC
 70
     2
  9
$MENU
  1
.
  9
$ELEVATION
 40
0.0
  9
$PELEVATION
 40
0.0
  9
$THICKNESS
 40
0.0
  9
$LIMCHECK
 70
     0
  9
$CHAMFERA
 40
0.0
  9
$CHAMFERB
 40
0.0
  9
$CHAMFERC
 40
0.0
  9
$CHAMFERD
 40
0.0
  9
$SKPOLY
 70
     0
  9
$TDCREATE
 40
2458985.633181099
  9
$TDUCREATE
 40
2458985.508181099
  9
$TDUPDATE
 40
2458985.633181342
  9
$TDUUPDATE
 40
2458985.508181342
  9
$TDINDWG
 40
0.0000000116
  9
$TDUSRTIMER
 40
0.0000000116
  9
$USRTIMER
 70
     1
  9
$ANGBASE
 50
0.0
  9
$ANGDIR
 70
     0
  9
$PDMODE
 70
     0
  9
$PDSIZE
 40
-1.0
  9
$PLINEWID
 40
0.0
  9
$SPLFRAME
 70
     0
  9
$SPLINETYPE
 70
     6
  9
$SPLINESEGS
 70
     8
  9
$HANDSEED
  5
CB
  9
$SURFTAB1
 70
     6
  9
$SURFTAB2
 70
     6
  9
$SURFTYPE
 70
     6
  9
$SURFU
 70
     6
  9
$SURFV
 70
     6
  9
$UCSBASE
  2

  9
$UCSNAME
  2

  9
$UCSORG
 10
0.0
 20
0.0
 30
0.0
  9
$UCSXDIR
 10
1.0
 20
0.0
 30
0.0
  9
$UCSYDIR
 10
0.0
 20
1.0
 30
0.0
  9
$UCSORTHOREF
  2

  9
$UCSORTHOVIEW
 70
     0
  9
$UCSORGTOP
 10
0.0
 20
0.0
 30
0.0
  9
$UCSORGBOTTOM
 10
0.0
 20
0.0
 30
0.0
  9
$UCSORGLEFT
 10
0.0
 20
0.0
 30
0.0
  9
$UCSORGRIGHT
 10
0.0
 20
0.0
 30
0.0
  9
$UCSORGFRONT
 10
0.0
 20
0.0
 30
0.0
  9
$UCSORGBACK
 10
0.0
 20
0.0
 30
0.0
  9
$PUCSBASE
  2

  9
$PUCSNAME
  2

  9
$PUCSORG
 10
0.0
 20
0.0
 30
0.0
  9
$PUCSXDIR
 10
1.0
 20
0.0
 30
0.0
  9
$PUCSYDIR
 10
0.0
 20
1.0
 30
0.0
  9
$PUCSORTHOREF
  2

  9
$PUCSORTHOVIEW
 70
     0
  9
$PUCSORGTOP
 10
0.0
 20
0.0
 30
0.0
  9
$PUCSORGBOTTOM
 10
0.0
 20
0.0
 30
0.0
  9
$PUCSORGLEFT
 10
0.0
 20
0.0
 30
0.0
  9
$PUCSORGRIGHT
 10
0.0
 20
0.0
 30
0.0
  9
$PUCSORGFRONT
 10
0.0
 20
0.0
 30
0.0
  9
$PUCSORGBACK
 10
0.0
 20
0.0
 30
0.0
  9
$USERI1
 70
     0
  9
$USERI2
 70
     0
  9
$USERI3
 70
     0
  9
$USERI4
 70
     0
  9
$USERI5
 70
     0
  9
$USERR1
 40
0.0
  9
$USERR2
 40
0.0
  9
$USERR3
 40
0.0
  9
$USERR4
 40
0.0
  9
$USERR5
 40
0.0
  9
$WORLDVIEW
 70
     1
  9
$SHADEDGE
 70
     3
  9
$SHADEDIF
 70
    70
  9
$TILEMODE
 70
     1
  9
$MAXACTVP
 70
    64
  9
$PINSBASE
 10
0.0
 20
0.0
 30
0.0
  9
$PLIMCHECK
 70
     0
  9
$PEXTMIN
 10
1.0000000000E+20
 20
1.0000000000E+20
 30
1.0000000000E+20
  9
$PEXTMAX
 10
-1.0000000000E+20
 20
-1.0000000000E+20
 30
-1.0000000000E+20
  9
$PLIMMIN
 10
0.0
 20
0.0
  9
$PLIMMAX
 10
420.0
 20
297.0
  9
$UNITMODE
 70
     0
  9
$VISRETAIN
 70
     1
  9
$PLINEGEN
 70
     0
  9
$PSLTSCALE
 70
     1
  9
$TREEDEPTH
 70
  3020
  9
$CMLSTYLE
  2
Standard
  9
$CMLJUST
 70
     0
  9
$CMLSCALE
 40
20.0
  9
$PROXYGRAPHICS
 70
     1
  9
$MEASUREMENT
 70
     1
  9
$CELWEIGHT
370
    -1
  9
$ENDCAPS
280
     0
  9
$JOINSTYLE
280
     0
  9
$LWDISPLAY
290
     1
  9
$INSUNITS
 70
     4
  9
$HYPERLINKBASE
  1

  9
$STYLESHEET
  1

  9
$XEDIT
290
     1
  9
$CEPSNTYPE
380
     0
  9
$PSTYLEMODE
290
     1
  9
$FINGERPRINTGUID
  2
{f98f5d7a-969f-44b4-87e8-a689648a43b0}
  9
$VERSIONGUID
  2
{FAEB1C32-E019-11D5-929B-00C0DF256EC4}
  9
$EXTNAMES
290
     1
  9
$PSVPSCALE
 40
0.0
  9
$OLESTARTUP
290
     0
  0
ENDSEC
  0
SECTION
  2
CLASSES
  0
CLASS
  1
ACDBDICTIONARYWDFLT
  2
AcDbDictionaryWithDefault
  3
ObjectDBX Classes
 90
        0
280
     0
281
     0
  0
CLASS
  1
VISUALSTYLE
  2
AcDbVisualStyle
  3
ObjectDBX Classes
 90
     4095
280
     0
281
     0
  0
CLASS
  1
MATERIAL
  2
AcDbMaterial
  3
ObjectDBX Classes
 90
     1153
280
     0
281
     0
  0
CLASS
  1
SCALE
  2
AcDbScale
  3
ObjectDBX Classes
 90
     1153
280
     0
281
     0
  0
CLASS
  1
TABLESTYLE
  2
AcDbTableStyle
  3
ObjectDBX Classes
 90
     4095
280
     0
281
     0
  0
CLASS
  1
MLEADERSTYLE
  2
AcDbMLeaderStyle
  3
ACDB_MLEADERSTYLE_CLASS
 90
     4095
280
     0
281
     0
  0
CLASS
  1
SUN
  2
AcDbSun
  3
SCENEOE
 90
     1153
280
     0
281
     0
  0
CLASS
  1
ACDBPLACEHOLDER
  2
AcDbPlaceHolder
  3
ObjectDBX Classes
 90
        0
280
     0
281
     0
  0
CLASS
  1
LAYOUT
  2
AcDbLayout
  3
ObjectDBX Classes
 90
        0
280
     0
281
     0
  0
ENDSEC
  0
SECTION
  2
TABLES
  0
TABLE
  2
VPORT
  5
8
330
0
100
AcDbSymbolTable
 70
     1
  0
VPORT
  5
29
330
8
100
AcDbSymbolTableRecord
100
AcDbViewportTableRecord
  2
*Active
 70
     0
 10
0.0
 20
0.0
 11
1.0
 21
1.0
 12
139.7
 22
107.95
 13
0.0
 23
0.0
 14
10.0
 24
10.0
 15
10.0
 25
10.0
 16
0.0
 26
0.0
 36
1.0
 17
0.0
 27
0.0
 37
0.0
 40
215.9
 41
1.2941176471
 42
50.0
 43
0.0
 44
0.0
 50
0.0
 51
0.0
 71
     0
 72
  2000
 73
     1
 74
     3
 75
     0
 76
     0
 77
     0
 78
     0
281
     0
 65
     1
110
0.0
120
0.0
130
0.0
111
1.0
121
0.0
131
0.0
112
0.0
122
1.0
132
0.0
 79
     0
146
0.0
  0
ENDTAB
  0
TABLE
  2
LTYPE
  5
5
330
0
100
AcDbSymbolTable
 70
     6
  0
LTYPE
  5
14
330
5
100
AcDbSymbolTableRecord
100
AcDbLinetypeTableRecord
  2
ByBlock
 70
     0
  3

 72
    65
 73
     0
 40
0.0
  0
LTYPE
  5
15
330
5
100
AcDbSymbolTableRecord
100
AcDbLinetypeTableRecord
  2
ByLayer
 70
     0
  3

 72
    65
 73
     0
 40
0.0
  0
LTYPE
  5
16
330
5
100
AcDbSymbolTableRecord
100
AcDbLinetypeTableRecord
  2
Continuous
 70
     0
  3
Solid line
 72
    65
 73
     0
 40
0.0
  0
LTYPE
  5
6E
330
5
100
AcDbSymbolTableRecord
100
AcDbLinetypeTableRecord
  2
HIDDEN
 70
     0
  3
Hidden __ __ __ __ __ __ __ __ __ __ __ __ __ __
 72
    65
 73
     2
 40
1.905
 49
1.27
 74
     0
 49
-0.635
 74
     0
  0
LTYPE
  5
6F
330
5
100
AcDbSymbolTableRecord
100
AcDbLinetypeTableRecord
  2
PHANTOM
 70
     0
  3
Phantom ______  __  __  ______  __  __  ______
 72
    65
 73
     6
 40
12.7
 49
6.35
 74
     0
 49
-1.27
 74
     0
 49
1.27
 74
     0
 49
-1.27
 74
     0
 49
1.27
 74
     0
 49
-1.27
 74
     0
  0
LTYPE
  5
70
330
5
100
AcDbSymbolTableRecord
100
AcDbLinetypeTableRecord
  2
CENTER
 70
     0
  3
Center ____ _ ____ _ ____ _ ____ _ ____ _ ____
 72
    65
 73
     4
 40
10.16
 49
6.35
 74
     0
 49
-1.27
 74
     0
 49
1.27
 74
     0
 49
-1.27
 74
     0
  0
LTYPE
  5
71
330
5
100
AcDbSymbolTableRecord
100
AcDbLinetypeTableRecord
  2
CENTERX2
 70
     0
  3
Center (2x) ________  __  ________  __  _____
 72
    65
 73
     4
 40
20.32
 49
12.7
 74
     0
 49
-2.54
 74
     0
 49
2.54
 74
     0
 49
-2.54
 74
     0
  0
LTYPE
  5
72
330
5
100
AcDbSymbolTableRecord
100
AcDbLinetypeTableRecord
  2
DOT2
 70
     0
  3
Dot (.5x) ........................................
 72
    65
 73
     2
 40
0.635
 49
0.0
 74
     0
 49
-0.635
 74
     0
  0
ENDTAB
  0
TABLE
  2
LAYER
  5
2
330
0
100
AcDbSymbolTable
 70
    17
  0
LAYER
  5
10
330
2
100
AcDbSymbolTableRecord
100
AcDbLayerTableRecord
  2
0
 70
     0
 62
     7
  6
Continuous
370
    -3
390
F
  0
LAYER
  5
73
330
2
100
AcDbSymbolTableRecord
100
AcDbLayerTableRecord
  2
FORMAT
 70
     0
 62
     7
  6
Continuous
370
    -3
390
F
  0
LAYER
  5
74
330
2
100
AcDbSymbolTableRecord
100
AcDbLayerTableRecord
  2
YARDIMCI_GEOMETRI
 70
     0
 62
    -6
  6
Continuous
290
     0
370
    -3
390
F
  0
LAYER
  5
75
330
2
100
AcDbSymbolTableRecord
100
AcDbLayerTableRecord
  2
SAYFA_CERCEVESI
 70
     0
 62
     7
  6
Continuous
370
    25
390
F
  0
LAYER
  5
76
330
2
100
AcDbSymbolTableRecord
100
AcDbLayerTableRecord
  2
ANTET
 70
     0
 62
     7
  6
Continuous
370
    -3
390
F
  0
LAYER
  5
77
330
2
100
AcDbSymbolTableRecord
100
AcDbLayerTableRecord
  2
OLCU
 70
     0
 62
   150
  6
Continuous
370
    -3
390
F
  0
LAYER
  5
78
330
2
100
AcDbSymbolTableRecord
100
AcDbLayerTableRecord
  2
METIN
 70
     0
 62
    96
  6
Continuous
370
    -3
390
F
  0
LAYER
  5
79
330
2
100
AcDbSymbolTableRecord
100
AcDbLayerTableRecord
  2
BALON
 70
     0
 62
     5
  6
Continuous
370
    -3
390
F
  0
LAYER
  5
7A
330
2
100
AcDbSymbolTableRecord
100
AcDbLayerTableRecord
  2
VURGU
 70
     0
 62
     7
  6
Continuous
370
    -3
390
F
  0
LAYER
  5
7B
330
2
100
AcDbSymbolTableRecord
100
AcDbLayerTableRecord
  2
SILIK
 70
     0
 62
     7
  6
Continuous
370
    -3
390
F
  0
LAYER
  5
7C
330
2
100
AcDbSymbolTableRecord
100
AcDbLayerTableRecord
  2
MODEL
 70
     0
 62
     7
  6
Continuous
370
    -3
390
F
  0
LAYER
  5
7D
330
2
100
AcDbSymbolTableRecord
100
AcDbLayerTableRecord
  2
DETAYLANDıRMA
 70
     0
 62
   190
  6
Continuous
370
    -3
390
F
  0
LAYER
  5
7E
330
2
100
AcDbSymbolTableRecord
100
AcDbLayerTableRecord
  2
TOLERANS
 70
     0
 62
   230
  6
Continuous
370
    -3
390
F
  0
LAYER
  5
7F
330
2
100
AcDbSymbolTableRecord
100
AcDbLayerTableRecord
  2
MERKEZ_CIZGILERI
 70
     0
 62
    30
  6
Continuous
370
    -3
390
F
  0
LAYER
  5
80
330
2
100
AcDbSymbolTableRecord
100
AcDbLayerTableRecord
  2
KESIT-DETAY_CIZGILERI
 70
     0
 62
     7
  6
Continuous
370
    -3
390
F
  0
LAYER
  5
81
330
2
100
AcDbSymbolTableRecord
100
AcDbLayerTableRecord
  2
\U+041E\U+0421\U+0415\U+0412\U+042B\U+0415
 70
     0
 62
     7
  6
Continuous
370
    -3
390
F
  0
LAYER
  5
82
330
2
100
AcDbSymbolTableRecord
100
AcDbLayerTableRecord
  2
\U+0412\U+041E\U+0414\U+042F\U+041D\U+042B\U+0415_\U+0417\U+041D\U+0410\U+041A\U+0418
 70
     0
 62
    11
  6
Continuous
370
    -3
390
F
  0
ENDTAB
  0
TABLE
  2
STYLE
  5
3
330
0
100
AcDbSymbolTable
 70
     1
  0
STYLE
  5
11
330
3
100
AcDbSymbolTableRecord
100
AcDbTextStyleTableRecord
  2
Standard
 70
     0
 40
0.0
 41
1.0
 50
0.0
 71
     0
 42
3.5
  3
txt
  4

  0
ENDTAB
  0
TABLE
  2
VIEW
  5
6
330
0
100
AcDbSymbolTable
 70
     0
  0
ENDTAB
  0
TABLE
  2
UCS
  5
7
330
0
100
AcDbSymbolTable
 70
     0
  0
ENDTAB
  0
TABLE
  2
APPID
  5
9
330
0
100
AcDbSymbolTable
 70
     1
  0
APPID
  5
12
330
9
100
AcDbSymbolTableRecord
100
AcDbRegAppTableRecord
  2
ACAD
 70
     0
  0
ENDTAB
  0
TABLE
  2
DIMSTYLE
  5
A
330
0
100
AcDbSymbolTable
 70
     1
100
AcDbDimStyleTable
  0
DIMSTYLE
105
27
330
A
100
AcDbSymbolTableRecord
100
AcDbDimStyleTableRecord
  2
ISO-25
 70
     0
 41
2.5
 42
0.625
 43
3.75
 44
1.25
 73
     0
 74
     0
 77
     1
 78
     8
140
2.5
141
2.5
143
0.0393700787
147
0.625
171
     3
172
     1
178
     0
271
     2
272
     2
274
     3
278
    44
283
     0
284
     8
340
11
  0
ENDTAB
  0
TABLE
  2
BLOCK_RECORD
  5
1
330
0
100
AcDbSymbolTable
 70
     2
  0
BLOCK_RECORD
  5
1F
330
1
100
AcDbSymbolTableRecord
100
AcDbBlockTableRecord
  2
*Model_Space
340
22
  0
BLOCK_RECORD
  5
1B
330
1
100
AcDbSymbolTableRecord
100
AcDbBlockTableRecord
  2
*Paper_Space
340
1E
  0
BLOCK_RECORD
  5
23
330
1
100
AcDbSymbolTableRecord
100
AcDbBlockTableRecord
  2
*Paper_Space0
340
26
  0
BLOCK_RECORD
  5
87
330
1
100
AcDbSymbolTableRecord
100
AcDbBlockTableRecord
  2
SW_CENTERMARKSYMBOL_0
340
0
102
{BLKREFS
331
92
102
}
  0
ENDTAB
  0
ENDSEC
  0
SECTION
  2
BLOCKS
  0
BLOCK
  5
20
330
1F
100
AcDbEntity
  8
0
100
AcDbBlockBegin
  2
*Model_Space
 70
     0
 10
0.0
 20
0.0
 30
0.0
  3
*Model_Space
  1

  0
ENDBLK
  5
21
330
1F
100
AcDbEntity
  8
0
100
AcDbBlockEnd
  0
BLOCK
  5
1C
330
1B
100
AcDbEntity
 67
     1
  8
0
100
AcDbBlockBegin
  2
*Paper_Space
 70
     0
 10
0.0
 20
0.0
 30
0.0
  3
*Paper_Space
  1

  0
ENDBLK
  5
1D
330
1B
100
AcDbEntity
 67
     1
  8
0
100
AcDbBlockEnd
  0
BLOCK
  5
24
330
23
100
AcDbEntity
  8
0
100
AcDbBlockBegin
  2
*Paper_Space0
 70
     0
 10
0.0
 20
0.0
 30
0.0
  3
*Paper_Space0
  1

  0
ENDBLK
  5
25
330
23
100
AcDbEntity
  8
0
100
AcDbBlockEnd
  0
BLOCK
  5
88
330
87
100
AcDbEntity
  8
0
100
AcDbBlockBegin
  2
SW_CENTERMARKSYMBOL_0
 70
     0
 10
0.0
 20
0.0
 30
0.0
  3
SW_CENTERMARKSYMBOL_0
  1

  0
LINE
  5
8A
330
87
100
AcDbEntity
  8
FORMAT
 62
     0
100
AcDbLine
 10
0.0
 20
0.0
 30
0.0
 11
0.0
 21
2.5
 31
0.0
  0
LINE
  5
8B
330
87
100
AcDbEntity
  8
FORMAT
 62
     0
100
AcDbLine
 10
0.0
 20
0.0
 30
0.0
 11
-2.5
 21
0.0
 31
0.0
  0
LINE
  5
8C
330
87
100
AcDbEntity
  8
FORMAT
 62
     0
100
AcDbLine
 10
0.0
 20
0.0
 30
0.0
 11
0.0
 21
-2.5
 31
0.0
  0
LINE
  5
8D
330
87
100
AcDbEntity
  8
FORMAT
 62
     0
100
AcDbLine
 10
0.0
 20
0.0
 30
0.0
 11
2.5
 21
0.0
 31
0.0
  0
LINE
  5
8E
330
87
100
AcDbEntity
  8
FORMAT
 62
     0
100
AcDbLine
 10
0.0
 20
5.0
 30
0.0
 11
0.0
 21
108.5
 31
0.0
  0
LINE
  5
8F
330
87
100
AcDbEntity
  8
FORMAT
 62
     0
100
AcDbLine
 10
-5.0
 20
0.0
 30
0.0
 11
-108.5
 21
0.0
 31
0.0
  0
LINE
  5
90
330
87
100
AcDbEntity
  8
FORMAT
 62
     0
100
AcDbLine
 10
0.0
 20
-5.0
 30
0.0
 11
0.0
 21
-108.5
 31
0.0
  0
LINE
  5
91
330
87
100
AcDbEntity
  8
FORMAT
 62
     0
100
AcDbLine
 10
5.0
 20
0.0
 30
0.0
 11
108.5
 21
0.0
 31
0.0
  0
ENDBLK
  5
89
330
87
100
AcDbEntity
  8
0
100
AcDbBlockEnd
  0
ENDSEC
  0
SECTION
  2
ENTITIES
  0
CIRCLE
  5
83
330
1F
100
AcDbEntity
  8
0
  6
Continuous
 62
     7
370
    25
100
AcDbCircle
 10
144.4671733152
 20
110.3292579811
 30
0.0
 40
90.0
  0
CIRCLE
  5
84
330
1F
100
AcDbEntity
  8
0
  6
Continuous
 62
     7
370
    25
100
AcDbCircle
 10
144.4671733152
 20
110.3292579811
 30
0.0
 40
73.6
  0
CIRCLE
  5
85
330
1F
100
AcDbEntity
  8
0
  6
Continuous
 62
     7
370
    25
100
AcDbCircle
 10
144.4671733152
 20
110.3292579811
 30
0.0
 40
94.0
  0
CIRCLE
  5
86
330
1F
100
AcDbEntity
  8
0
  6
Continuous
 62
     7
370
    25
100
AcDbCircle
 10
144.4671733152
 20
110.3292579811
 30
0.0
 40
106.0
  0
INSERT
  5
92
330
1F
100
AcDbEntity
  8
FORMAT
 62
     7
100
AcDbBlockReference
  2
SW_CENTERMARKSYMBOL_0
 10
144.4671733152
 20
110.3292579811
 30
0.0
  0
LINE
  5
93
330
1F
100
AcDbEntity
  8
0
  6
Continuous
 62
     7
370
    25
100
AcDbLine
 10
250.4671733152
 20
272.6798647983
 30
0.0
 11
250.4671733152
 21
302.6798647983
 31
0.0
  0
LINE
  5
94
330
1F
100
AcDbEntity
  8
0
  6
Continuous
 62
     7
370
    25
100
AcDbLine
 10
38.4671733152
 20
302.6798647983
 30
0.0
 11
38.4671733152
 21
272.6798647983
 31
0.0
  0
LINE
  5
95
330
1F
100
AcDbEntity
  8
0
  6
Continuous
 62
     7
370
    25
100
AcDbLine
 10
238.4671733152
 20
302.6798647983
 30
0.0
 11
234.4671733152
 21
327.6798647983
 31
0.0
  0
LINE
  5
96
330
1F
100
AcDbEntity
  8
0
  6
Continuous
 62
     7
370
    25
100
AcDbLine
 10
54.4671733152
 20
327.6798647983
 30
0.0
 11
50.4671733152
 21
302.6798647983
 31
0.0
  0
LINE
  5
97
330
1F
100
AcDbEntity
  8
0
  6
Continuous
 62
     7
370
    25
100
AcDbLine
 10
234.4671733152
 20
327.6798647983
 30
0.0
 11
234.4671733152
 21
479.6798647983
 31
0.0
  0
LINE
  5
98
330
1F
100
AcDbEntity
  8
0
  6
Continuous
 62
     7
370
    25
100
AcDbLine
 10
54.4671733152
 20
479.6798647983
 30
0.0
 11
54.4671733152
 21
327.6798647983
 31
0.0
  0
LINE
  5
99
330
1F
100
AcDbEntity
  8
0
  6
Continuous
 62
     7
370
    25
100
AcDbLine
 10
250.4671733152
 20
272.6798647983
 30
0.0
 11
38.4671733152
 21
272.6798647983
 31
0.0
  0
LINE
  5
9A
330
1F
100
AcDbEntity
  8
0
  6
Continuous
 62
     7
370
    25
100
AcDbLine
 10
250.4671733152
 20
302.6798647983
 30
0.0
 11
38.4671733152
 21
302.6798647983
 31
0.0
  0
LINE
  5
9B
330
1F
100
AcDbEntity
  8
0
  6
Continuous
 62
     7
370
    25
100
AcDbLine
 10
234.4671733152
 20
327.6798647983
 30
0.0
 11
54.4671733152
 21
327.6798647983
 31
0.0
  0
LINE
  5
9C
330
1F
100
AcDbEntity
  8
0
  6
Continuous
 62
     7
370
    25
100
AcDbLine
 10
234.4671733152
 20
479.6798647983
 30
0.0
 11
54.4671733152
 21
479.6798647983
 31
0.0
  0
LINE
  5
9D
330
1F
100
AcDbEntity
  8
0
  6
Continuous
 62
     7
370
    25
100
AcDbLine
 10
-39.4504485517
 20
216.3292579811
 30
0.0
 11
-69.4504485517
 21
216.3292579811
 31
0.0
  0
LINE
  5
9E
330
1F
100
AcDbEntity
  8
0
  6
Continuous
 62
     7
370
    25
100
AcDbLine
 10
-69.4504485517
 20
4.3292579811
 30
0.0
 11
-39.4504485517
 21
4.3292579811
 31
0.0
  0
LINE
  5
9F
330
1F
100
AcDbEntity
  8
0
  6
Continuous
 62
     7
370
    25
100
AcDbLine
 10
-69.4504485517
 20
204.3292579811
 30
0.0
 11
-94.4504485517
 21
200.3292579811
 31
0.0
  0
LINE
  5
A0
330
1F
100
AcDbEntity
  8
0
  6
Continuous
 62
     7
370
    25
100
AcDbLine
 10
-94.4504485517
 20
20.3292579811
 30
0.0
 11
-69.4504485517
 21
16.3292579811
 31
0.0
  0
LINE
  5
A1
330
1F
100
AcDbEntity
  8
0
  6
Continuous
 62
     7
370
    25
100
AcDbLine
 10
-94.4504485517
 20
200.3292579811
 30
0.0
 11
-246.4504485517
 21
200.3292579811
 31
0.0
  0
LINE
  5
A2
330
1F
100
AcDbEntity
  8
0
  6
Continuous
 62
     7
370
    25
100
AcDbLine
 10
-246.4504485517
 20
20.3292579811
 30
0.0
 11
-94.4504485517
 21
20.3292579811
 31
0.0
  0
LINE
  5
A3
330
1F
100
AcDbEntity
  8
0
  6
Continuous
 62
     7
370
    25
100
AcDbLine
 10
-39.4504485517
 20
216.3292579811
 30
0.0
 11
-39.4504485517
 21
4.3292579811
 31
0.0
  0
LINE
  5
A4
330
1F
100
AcDbEntity
  8
0
  6
Continuous
 62
     7
370
    25
100
AcDbLine
 10
-69.4504485517
 20
216.3292579811
 30
0.0
 11
-69.4504485517
 21
4.3292579811
 31
0.0
  0
LINE
  5
A5
330
1F
100
AcDbEntity
  8
0
  6
Continuous
 62
     7
370
    25
100
AcDbLine
 10
-94.4504485517
 20
200.3292579811
 30
0.0
 11
-94.4504485517
 21
20.3292579811
 31
0.0
  0
LINE
  5
A6
330
1F
100
AcDbEntity
  8
0
  6
Continuous
 62
     7
370
    25
100
AcDbLine
 10
-246.4504485517
 20
200.3292579811
 30
0.0
 11
-246.4504485517
 21
20.3292579811
 31
0.0
  0
LINE
  5
A7
330
1F
100
AcDbEntity
  8
0
  6
Continuous
 62
     7
370
    25
100
AcDbLine
 10
309.4171685499
 20
4.3292579811
 30
0.0
 11
339.4171685499
 21
4.3292579811
 31
0.0
  0
LINE
  5
A8
330
1F
100
AcDbEntity
  8
0
  6
Continuous
 62
     7
370
    25
100
AcDbLine
 10
339.4171685499
 20
216.3292579811
 30
0.0
 11
309.4171685499
 21
216.3292579811
 31
0.0
  0
LINE
  5
A9
330
1F
100
AcDbEntity
  8
0
  6
Continuous
 62
     7
370
    25
100
AcDbLine
 10
339.4171685499
 20
16.3292579811
 30
0.0
 11
364.4171685499
 21
20.3292579811
 31
0.0
  0
LINE
  5
AA
330
1F
100
AcDbEntity
  8
0
  6
Continuous
 62
     7
370
    25
100
AcDbLine
 10
364.4171685499
 20
200.3292579811
 30
0.0
 11
339.4171685499
 21
204.3292579811
 31
0.0
  0
LINE
  5
AB
330
1F
100
AcDbEntity
  8
0
  6
Continuous
 62
     7
370
    25
100
AcDbLine
 10
364.4171685499
 20
20.3292579811
 30
0.0
 11
516.4171685499
 21
20.3292579811
 31
0.0
  0
LINE
  5
AC
330
1F
100
AcDbEntity
  8
0
  6
Continuous
 62
     7
370
    25
100
AcDbLine
 10
516.4171685499
 20
200.3292579811
 30
0.0
 11
364.4171685499
 21
200.3292579811
 31
0.0
  0
LINE
  5
AD
330
1F
100
AcDbEntity
  8
0
  6
Continuous
 62
     7
370
    25
100
AcDbLine
 10
309.4171685499
 20
110.3292579811
 30
0.0
 11
309.4171685499
 21
216.3292579811
 31
0.0
  0
LINE
  5
AE
330
1F
100
AcDbEntity
  8
0
  6
Continuous
 62
     7
370
    25
100
AcDbLine
 10
309.4171685499
 20
4.3292579811
 30
0.0
 11
309.4171685499
 21
110.3292579811
 31
0.0
  0
LINE
  5
AF
330
1F
100
AcDbEntity
  8
0
  6
Continuous
 62
     7
370
    25
100
AcDbLine
 10
339.4171685499
 20
110.3292579811
 30
0.0
 11
339.4171685499
 21
216.3292579811
 31
0.0
  0
LINE
  5
B0
330
1F
100
AcDbEntity
  8
0
  6
Continuous
 62
     7
370
    25
100
AcDbLine
 10
339.4171685499
 20
4.3292579811
 30
0.0
 11
339.4171685499
 21
110.3292579811
 31
0.0
  0
LINE
  5
B1
330
1F
100
AcDbEntity
  8
0
  6
Continuous
 62
     7
370
    25
100
AcDbLine
 10
364.4171685499
 20
110.3292579811
 30
0.0
 11
364.4171685499
 21
200.3292579811
 31
0.0
  0
LINE
  5
B2
330
1F
100
AcDbEntity
  8
0
  6
Continuous
 62
     7
370
    25
100
AcDbLine
 10
364.4171685499
 20
20.3292579811
 30
0.0
 11
364.4171685499
 21
110.3292579811
 31
0.0
  0
LINE
  5
B3
330
1F
100
AcDbEntity
  8
0
  6
Continuous
 62
     7
370
    25
100
AcDbLine
 10
516.4171685499
 20
110.3292579811
 30
0.0
 11
516.4171685499
 21
200.3292579811
 31
0.0
  0
LINE
  5
B4
330
1F
100
AcDbEntity
  8
0
  6
Continuous
 62
     7
370
    25
100
AcDbLine
 10
516.4171685499
 20
20.3292579811
 30
0.0
 11
516.4171685499
 21
110.3292579811
 31
0.0
  0
LINE
  5
B5
330
1F
100
AcDbEntity
  8
0
  6
Continuous
 62
     7
370
    25
100
AcDbLine
 10
38.4671733152
 20
-44.2815918651
 30
0.0
 11
38.4671733152
 21
-74.2815918651
 31
0.0
  0
LINE
  5
B6
330
1F
100
AcDbEntity
  8
0
  6
Continuous
 62
     7
370
    25
100
AcDbLine
 10
250.4671733152
 20
-74.2815918651
 30
0.0
 11
250.4671733152
 21
-44.2815918651
 31
0.0
  0
LINE
  5
B7
330
1F
100
AcDbEntity
  8
0
  6
Continuous
 62
     7
370
    25
100
AcDbLine
 10
50.4671733152
 20
-74.2815918651
 30
0.0
 11
54.4671733152
 21
-99.2815918651
 31
0.0
  0
LINE
  5
B8
330
1F
100
AcDbEntity
  8
0
  6
Continuous
 62
     7
370
    25
100
AcDbLine
 10
234.4671733152
 20
-99.2815918651
 30
0.0
 11
238.4671733152
 21
-74.2815918651
 31
0.0
  0
LINE
  5
B9
330
1F
100
AcDbEntity
  8
0
  6
Continuous
 62
     7
370
    25
100
AcDbLine
 10
54.4671733152
 20
-99.2815918651
 30
0.0
 11
54.4671733152
 21
-251.2815918651
 31
0.0
  0
LINE
  5
BA
330
1F
100
AcDbEntity
  8
0
  6
Continuous
 62
     7
370
    25
100
AcDbLine
 10
234.4671733152
 20
-251.2815918651
 30
0.0
 11
234.4671733152
 21
-99.2815918651
 31
0.0
  0
LINE
  5
BB
330
1F
100
AcDbEntity
  8
0
  6
Continuous
 62
     7
370
    25
100
AcDbLine
 10
38.4671733152
 20
-44.2815918651
 30
0.0
 11
250.4671733152
 21
-44.2815918651
 31
0.0
  0
LINE
  5
BC
330
1F
100
AcDbEntity
  8
0
  6
Continuous
 62
     7
370
    25
100
AcDbLine
 10
38.4671733152
 20
-74.2815918651
 30
0.0
 11
250.4671733152
 21
-74.2815918651
 31
0.0
  0
LINE
  5
BD
330
1F
100
AcDbEntity
  8
0
  6
Continuous
 62
     7
370
    25
100
AcDbLine
 10
54.4671733152
 20
-99.2815918651
 30
0.0
 11
234.4671733152
 21
-99.2815918651
 31
0.0
  0
LINE
  5
BE
330
1F
100
AcDbEntity
  8
0
  6
Continuous
 62
     7
370
    25
100
AcDbLine
 10
54.4671733152
 20
-251.2815918651
 30
0.0
 11
234.4671733152
 21
-251.2815918651
 31
0.0
  0
LINE
  5
BF
330
1F
100
AcDbEntity
  8
0
  6
Continuous
 62
     7
370
    25
100
AcDbLine
 10
375.0856184503
 20
-79.2805702248
 30
0.0
 11
304.147919333
 21
-148.517939259
 31
0.0
  0
LINE
  5
C0
330
1F
100
AcDbEntity
  8
0
  6
Continuous
 62
     7
370
    25
100
AcDbLine
 10
429.8739878901
 20
-277.3315863822
 30
0.0
 11
500.8116870074
 21
-208.094217348
 31
0.0
  0
LINE
  5
C1
330
1F
100
AcDbEntity
  8
0
  6
Continuous
 62
     7
370
    25
100
AcDbLine
 10
375.6196993841
 20
-75.4618087081
 30
0.0
 11
370.5049396325
 21
-83.7514531781
 31
0.0
  0
LINE
  5
C2
330
1F
100
AcDbEntity
  8
0
  6
Continuous
 62
     7
370
    25
100
AcDbLine
 10
496.2310081897
 20
-212.5651003013
 30
0.0
 11
504.6422798662
 21
-207.6529234378
 31
0.0
  0
LINE
  5
C3
330
1F
100
AcDbEntity
  8
0
  6
Continuous
 62
     7
370
    25
100
AcDbLine
 10
389.5782143031
 20
-42.7774728841
 30
0.0
 11
375.5773526352
 21
-56.4427430882
 31
0.0
  0
LINE
  5
C4
330
1F
100
AcDbEntity
  8
0
  6
Continuous
 62
     7
370
    25
100
AcDbLine
 10
523.6547222691
 20
-208.1565941444
 30
0.0
 11
537.655583937
 21
-194.4913239402
 31
0.0
  0
LWPOLYLINE
  5
C5
330
1F
100
AcDbEntity
  8
0
  6
Continuous
 62
     7
370
    25
100
AcDbPolyline
 90
       62
 70
   128
 43
0.0
 10
375.0856184503
 20
-79.2805702248
 10
376.3772136152
 20
-78.0625043754
 10
379.1252936665
 20
-75.728176353
 10
382.0373249698
 20
-73.5832628585
 10
385.1051911717
 20
-71.6337421506
 10
388.3203415788
 20
-69.8850478931
 10
391.6738149903
 20
-68.3420540105
 10
395.1562646743
 20
-67.0090611037
 10
398.7579844188
 20
-65.8897844628
 10
402.4689355851
 20
-64.9873437126
 10
406.2787750866
 20
-64.3042541174
 10
410.1768842173
 20
-63.8424195704
 10
414.1523982478
 20
-63.6031272872
 10
418.1942367077
 20
-63.5870442185
 10
422.2911342681
 20
-63.7942151905
 10
426.4316721407
 20
-64.2240627807
 10
430.6043099039
 20
-64.8753889267
 10
434.7974176678
 20
-65.7463782657
 10
438.999308489
 20
-66.8346031943
 10
443.1982709441
 20
-68.1370306343
 10
447.3826017717
 20
-69.6500304869
 10
451.5406384913
 20
-71.3693857501
 10
455.6607919088
 20
-73.2903042725
 10
459.7315784176
 20
-75.4074321095
 10
463.7416520055
 20
-77.7148684462
 10
467.6798358784
 20
-80.2061820437
 10
471.5351536113
 20
-82.8744291641
 10
475.2968597422
 20
-85.7121729241
 10
478.9544697216
 20
-88.7115040229
 10
482.4977891343
 20
-91.8640627868
 10
485.9169421137
 20
-95.1610624691
 10
489.2023988671
 20
-98.5933137403
 10
492.3450022373
 20
-102.1512503005
 10
495.335993225
 20
-105.8249555424
 10
498.167035402
 20
-109.6041901906
 10
500.8302381459
 20
-113.4784208402
 10
503.318178633
 20
-117.4368493157
 10
505.6239225269
 20
-121.4684427668
 10
507.7410433058
 20
-125.5619644195
 10
509.6636401745
 20
-129.7060048948
 10
511.3863545106
 20
-133.8890140086
 10
512.9043848002
 20
-138.0993329642
 10
514.2135000207
 20
-142.3252268476
 10
515.3100514332
 20
-146.5549173346
 10
516.1909827523
 20
-150.7766155191
 10
516.8538386642
 20
-154.9785547712
 10
517.2967716707
 20
-159.1490235324
 10
517.5185472381
 20
-163.2763979584
 10
517.5185472381
 20
-167.3491743164
 10
517.2967716707
 20
-171.3560010481
 10
516.8538386642
 20
-175.2857104088
 10
516.1909827523
 20
-179.1273495937
 10
515.3100514332
 20
-182.8702112654
 10
514.2135000207
 20
-186.503863397
 10
512.9043848002
 20
-190.0181783484
 10
511.3863545106
 20
-193.4033610935
 10
509.6636401745
 20
-196.6499765208
 10
507.7410433058
 20
-199.7489757308
 10
505.6239225269
 20
-202.6917212569
 10
503.318178633
 20
-205.4700111395
 10
500.8302381459
 20
-208.0761017864
 10
500.8116870074
 20
-208.094217348
  0
LWPOLYLINE
  5
C6
330
1F
100
AcDbEntity
  8
0
  6
Continuous
 62
     7
370
    25
100
AcDbPolyline
 90
      120
 70
   128
 43
0.0
 10
287.4133226605
 20
-191.2918322991
 10
287.5242490975
 20
-187.2506225619
 10
287.8567192364
 20
-183.2809712584
 10
288.4098064233
 20
-179.3939425188
 10
289.1819691052
 20
-175.6003701894
 10
290.171055126
 20
-171.9108276366
 10
291.3743077257
 20
-168.3355982773
 10
292.7883732234
 20
-164.884646917
 10
294.4093103649
 20
-161.5675919761
 10
296.2326013079
 20
-158.3936786815
 10
298.2531642132
 20
-155.371753299
 10
300.4653674099
 20
-152.5102384765
 10
302.8630450906
 20
-149.8171097692
 10
305.4395144978
 20
-147.2998734097
 10
308.1875945491
 20
-144.9655453872
 10
311.0996258525
 20
-142.8206318928
 10
314.1674920544
 20
-140.8711111848
 10
317.3826424615
 20
-139.1224169273
 10
320.7361158729
 20
-137.5794230448
 10
324.2185655569
 20
-136.2464301379
 10
327.8202853015
 20
-135.127153497
 10
331.5312364677
 20
-134.2247127469
 10
335.3410759692
 20
-133.5416231516
 10
339.2391850999
 20
-133.0797886046
 10
343.2146991305
 20
-132.8404963215
 10
347.2565375903
 20
-132.8244132527
 10
351.3534351507
 20
-133.0315842248
 10
355.4939730233
 20
-133.461431815
 10
359.6666107865
 20
-134.112757961
 10
363.8597185504
 20
-134.9837473
 10
368.0616093716
 20
-136.0719722285
 10
372.2605718267
 20
-137.3743996685
 10
376.4449026544
 20
-138.8873995211
 10
380.602939374
 20
-140.6067547844
 10
384.7230927914
 20
-142.5276733067
 10
388.7938793002
 20
-144.6448011438
 10
392.8039528882
 20
-146.9522374805
 10
396.742136761
 20
-149.443551078
 10
400.5974544939
 20
-152.1117981983
 10
404.3591606249
 20
-154.9495419584
 10
408.0167706042
 20
-157.9488730572
 10
411.5600900169
 20
-161.1014318211
 10
414.9792429963
 20
-164.3984315034
 10
418.2646997497
 20
-167.8306827745
 10
421.4073031199
 20
-171.3886193347
 10
424.3982941077
 20
-175.0623245766
 10
427.2293362846
 20
-178.8415592248
 10
429.8925390285
 20
-182.7157898745
 10
432.3804795156
 20
-186.6742183499
 10
434.6862234095
 20
-190.705811801
 10
436.8033441885
 20
-194.7993334537
 10
438.7259410571
 20
-198.943373929
 10
440.4486553932
 20
-203.1263830428
 10
441.9666856828
 20
-207.3367019984
 10
443.2758009034
 20
-211.5625958818
 10
444.3723523159
 20
-215.7922863688
 10
445.2532836349
 20
-220.0139845533
 10
445.9161395468
 20
-224.2159238054
 10
446.3590725533
 20
-228.3863925667
 10
446.5808481208
 20
-232.5137669927
 10
446.5808481208
 20
-236.5865433506
 10
446.3590725533
 20
-240.5933700823
 10
445.9161395468
 20
-244.523079443
 10
445.2532836349
 20
-248.3647186279
 10
444.3723523159
 20
-252.1075802996
 10
443.2758009034
 20
-255.7412324313
 10
441.9666856828
 20
-259.2555473827
 10
440.4486553932
 20
-262.6407301278
 10
438.7259410571
 20
-265.8873455551
 10
436.8033441885
 20
-268.9863447651
 10
434.6862234095
 20
-271.9290902912
 10
432.3804795156
 20
-274.7073801738
 10
429.8925390285
 20
-277.3134708207
 10
427.2293362846
 20
-279.7400985898
 10
424.3982941077
 20
-281.9805000344
 10
421.4073031199
 20
-284.0284307537
 10
418.2646997497
 20
-285.8781827976
 10
414.9792429963
 20
-287.5246005752
 10
411.5600900169
 20
-288.9630952251
 10
408.0167706042
 20
-290.1896574045
 10
404.3591606249
 20
-291.2008684648
 10
400.5974544939
 20
-291.9939099792
 10
396.742136761
 20
-292.566571599
 10
392.8039528882
 20
-292.9172572133
 10
388.7938793002
 20
-293.0449893986
 10
384.7230927914
 20
-292.9494121423
 10
380.602939374
 20
-292.6307918353
 10
376.4449026544
 20
-292.0900165296
 10
372.2605718267
 20
-291.3285934631
 10
368.0616093716
 20
-290.3486448582
 10
363.8597185504
 20
-289.1529020076
 10
359.6666107865
 20
-287.7446976611
 10
355.4939730233
 20
-286.1279567366
 10
351.3534351507
 20
-284.3071853813
 10
347.2565375903
 20
-282.2874584113
 10
343.2146991305
 20
-280.074405168
 10
339.2391850999
 20
-277.6741938278
 10
335.3410759692
 20
-275.09351421
 10
331.5312364677
 20
-272.3395591318
 10
327.8202853015
 20
-269.4200043598
 10
324.2185655569
 20
-266.3429872168
 10
320.7361158729
 20
-263.1170839014
 10
317.3826424615
 20
-259.7512855849
 10
314.1674920544
 20
-256.2549733508
 10
311.0996258525
 20
-252.6378920483
 10
308.1875945491
 20
-248.9101231319
 10
305.4395144978
 20
-245.0820565621
 10
302.8630450906
 20
-241.1643618469
 10
300.4653674099
 20
-237.1679583044
 10
298.2531642132
 20
-233.1039846278
 10
296.2326013079
 20
-228.9837678407
 10
294.4093103649
 20
-224.8187917264
 10
292.7883732234
 20
-220.6206648203
 10
291.3743077257
 20
-216.4010880549
 10
290.171055126
 20
-212.1718221476
 10
289.1819691052
 20
-207.944654821
 10
288.4098064233
 20
-203.7313679487
 10
287.8567192364
 20
-199.5437047167
 10
287.5242490975
 20
-195.3933368937
 10
287.4133226605
 20
-191.2918322991
  0
LWPOLYLINE
  5
C7
330
1F
100
AcDbEntity
  8
0
  6
Continuous
 62
     7
370
    25
100
AcDbPolyline
 90
      109
 70
   128
 43
0.0
 10
301.9177798561
 20
-195.2338329719
 10
302.0279072037
 20
-191.5955505562
 10
302.3579166104
 20
-188.0294394431
 10
302.906691429
 20
-184.547566224
 10
303.672374779
 20
-181.1617124556
 10
304.6523758305
 20
-177.8833347952
 10
305.84337857
 20
-174.7235262352
 10
307.2413530213
 20
-171.6929785674
 10
308.8415688814
 20
-168.801946206
 10
310.6386115263
 20
-166.0602114892
 10
312.6264003326
 20
-163.4770515795
 10
314.7982092522
 20
-161.0612070724
 10
317.1466895712
 20
-158.8208524209
 10
319.6638947755
 20
-156.7635682759
 10
322.3413074395
 20
-154.896315836
 10
325.1698680463
 20
-153.2254132921
 10
328.1400056422
 20
-151.7565144497
 10
331.2416702218
 20
-150.4945895974
 10
334.4643667338
 20
-149.4439086894
 10
337.7971905934
 20
-148.6080268975
 10
341.2288645797
 20
-147.989772581
 10
344.7477769942
 20
-147.5912377167
 10
348.342020951
 20
-147.4137708205
 10
351.9994346665
 20
-147.4579723843
 10
355.7076426103
 20
-147.7236928439
 10
359.4540973806
 20
-148.2100330853
 10
363.2261221603
 20
-148.9153474872
 10
367.0109536115
 20
-149.8372494889
 10
370.7957850628
 20
-150.9726196659
 10
374.5678098424
 20
-152.3176162848
 10
378.3142646127
 20
-153.8676883028
 10
382.0224725565
 20
-155.6175907669
 10
385.679886272
 20
-157.5614025611
 10
389.2741302289
 20
-159.6925464415
 10
392.7930426433
 20
-162.003811292
 10
396.2247166296
 20
-164.4873765237
 10
399.5575404892
 20
-167.1348385382
 10
402.7802370013
 20
-169.937239162
 10
405.8819015808
 20
-172.8850959584
 10
408.8520391767
 20
-175.9684343133
 10
411.6805997835
 20
-179.1768211856
 10
414.3580124476
 20
-182.4994004097
 10
416.8752176519
 20
-185.9249294293
 10
419.2236979708
 20
-189.4418173385
 10
421.3955068904
 20
-193.0381641019
 10
423.3832956967
 20
-196.7018008204
 10
425.1803383416
 20
-200.420330907
 10
426.7805542017
 20
-204.181172033
 10
428.1785286531
 20
-207.9715987026
 10
429.3695313926
 20
-211.7787853116
 10
430.349532444
 20
-215.5898495458
 10
431.1152157941
 20
-219.3918959701
 10
431.6639906126
 20
-223.1720596629
 10
431.9940000194
 20
-226.917549747
 10
432.104127367
 20
-230.6156926694
 10
431.9940000194
 20
-234.2539750851
 10
431.6639906126
 20
-237.8200861981
 10
431.1152157941
 20
-241.3019594172
 10
430.349532444
 20
-244.6878131857
 10
429.3695313926
 20
-247.9661908461
 10
428.1785286531
 20
-251.1259994061
 10
426.7805542017
 20
-254.1565470738
 10
425.1803383416
 20
-257.0475794353
 10
423.3832956967
 20
-259.789314152
 10
421.3955068904
 20
-262.3724740617
 10
419.2236979708
 20
-264.7883185689
 10
416.8752176519
 20
-267.0286732204
 10
414.3580124476
 20
-269.0859573653
 10
411.6805997835
 20
-270.9532098053
 10
408.8520391767
 20
-272.6241123492
 10
405.8819015808
 20
-274.0930111916
 10
402.7802370013
 20
-275.3549360439
 10
399.5575404892
 20
-276.4056169518
 10
396.2247166296
 20
-277.2414987437
 10
392.7930426433
 20
-277.8597530603
 10
389.2741302289
 20
-278.2582879246
 10
385.679886272
 20
-278.4357548207
 10
382.0224725565
 20
-278.391553257
 10
378.3142646127
 20
-278.1258327974
 10
374.5678098424
 20
-277.6394925559
 10
370.7957850628
 20
-276.934178154
 10
367.0109536115
 20
-276.0122761523
 10
363.2261221603
 20
-274.8769059754
 10
359.4540973806
 20
-273.5319093565
 10
355.7076426103
 20
-271.9818373385
 10
351.9994346665
 20
-270.2319348743
 10
348.342020951
 20
-268.2881230801
 10
344.7477769942
 20
-266.1569791997
 10
341.2288645797
 20
-263.8457143493
 10
337.7971905934
 20
-261.3621491176
 10
334.4643667338
 20
-258.7146871031
 10
331.2416702218
 20
-255.9122864793
 10
328.1400056422
 20
-252.9644296828
 10
325.1698680463
 20
-249.8810913279
 10
322.3413074395
 20
-246.6727044557
 10
319.6638947755
 20
-243.3501252315
 10
317.1466895712
 20
-239.9245962119
 10
314.7982092522
 20
-236.4077083027
 10
312.6264003326
 20
-232.8113615394
 10
310.6386115263
 20
-229.1477248209
 10
308.8415688814
 20
-225.4291947343
 10
307.2413530213
 20
-221.6683536082
 10
305.84337857
 20
-217.8779269387
 10
304.6523758305
 20
-214.0707403297
 10
303.672374779
 20
-210.2596760955
 10
302.906691429
 20
-206.4576296712
 10
302.3579166104
 20
-202.6774659783
 10
302.0279072037
 20
-198.9319758943
 10
301.9177798561
 20
-195.2338329719
  0
LWPOLYLINE
  5
C8
330
1F
100
AcDbEntity
  8
0
  6
Continuous
 62
     7
370
    25
100
AcDbPolyline
 90
       70
 70
   128
 43
0.0
 10
375.6196993841
 20
-75.4618087081
 10
377.2646098618
 20
-72.9496677006
 10
379.4685002529
 20
-69.9914588627
 10
381.8584093024
 20
-67.198480196
 10
384.4279994009
 20
-64.5781381778
 10
387.1704564575
 20
-62.137381484
 10
390.0785079691
 20
-59.8826825626
 10
393.1444423058
 20
-57.8200204699
 10
396.360129161
 20
-55.9548650148
 10
399.7170411111
 20
-54.2921622545
 10
403.2062762293
 20
-52.8363213776
 10
406.8185816911
 20
-51.5912030125
 10
410.5443783119
 20
-50.5601089893
 10
414.3737859489
 20
-49.7457735838
 10
418.2966497013
 20
-49.1503562674
 10
422.3025668398
 20
-48.7754359795
 10
426.3809143923
 20
-48.6220069415
 10
430.5208773141
 20
-48.6904760196
 10
434.7114771679
 20
-48.980661646
 10
438.9416012361
 20
-49.4917943006
 10
443.2000319903
 20
-50.2225185516
 10
447.4754768375
 20
-51.1708966496
 10
451.7565980667
 20
-52.3344136664
 10
456.032042914
 20
-53.709984164
 10
460.2904736681
 20
-55.2939603766
 10
464.5205977364
 20
-57.0821418843
 10
468.7111975902
 20
-59.069786751
 10
472.851160512
 20
-61.2516240999
 10
476.9295080644
 20
-63.6218680906
 10
480.9354252029
 20
-66.1742332621
 10
484.8582889554
 20
-68.9019512008
 10
488.6876965924
 20
-71.7977884891
 10
492.4134932132
 20
-74.8540658871
 10
496.025798675
 20
-78.0626786966
 10
499.5150337932
 20
-81.4151182531
 10
502.8719457433
 20
-84.9024944898
 10
506.0876325985
 20
-88.5155595116
 10
509.1535669352
 20
-92.2447321197
 10
512.0616184468
 20
-96.0801232188
 10
514.8040755034
 20
-100.0115620411
 10
517.3736656019
 20
-104.0286231175
 10
519.7635746513
 20
-108.1206539244
 10
521.9674650425
 20
-112.2768031316
 10
523.9794924543
 20
-116.4860493786
 10
525.7943213517
 20
-120.7372305009
 10
527.4071391348
 20
-125.0190731306
 10
528.8136689007
 20
-129.3202225906
 10
530.0101807853
 20
-133.6292730059
 10
530.9935018542
 20
-137.9347975494
 10
531.7610245168
 20
-142.225378744
 10
532.3107134408
 20
-146.4896387397
 10
532.6411109501
 20
-150.7162694855
 10
532.7513408898
 20
-154.8940627166
 10
532.6411109501
 20
-159.0119396763
 10
532.3107134408
 20
-163.0589804952
 10
531.7610245168
 20
-167.0244531485
 10
530.9935018542
 20
-170.8978419158
 10
530.0101807853
 20
-174.6688752663
 10
528.8136689007
 20
-178.3275530974
 10
527.4071391348
 20
-181.8641732533
 10
525.7943213517
 20
-185.2693572531
 10
523.9794924543
 20
-188.534075161
 10
521.9674650425
 20
-191.6496695319
 10
519.7635746513
 20
-194.6078783698
 10
517.3736656019
 20
-197.4008570365
 10
514.8040755034
 20
-200.0211990548
 10
512.0616184468
 20
-202.4619557485
 10
509.1535669352
 20
-204.7166546699
 10
506.0876325985
 20
-206.7793167627
 10
504.6422798662
 20
-207.6529234378
  0
LWPOLYLINE
  5
C9
330
1F
100
AcDbEntity
  8
0
  6
Continuous
 62
     7
370
    25
100
AcDbPolyline
 90
       67
 70
   128
 43
0.0
 10
389.5782143031
 20
-42.7774728841
 10
390.8326639945
 20
-41.5873806998
 10
393.7957575364
 20
-39.0260986188
 10
396.9244591122
 20
-36.6536386296
 10
400.2113477874
 20
-34.4756279453
 10
403.6486274253
 20
-32.4972325665
 10
407.2281451782
 20
-30.7231450286
 10
410.9414108255
 20
-29.157573271
 10
414.7796169114
 20
-27.8042306572
 10
418.733659635
 20
-26.6663271662
 10
422.794160444
 20
-25.7465617795
 10
426.9514882789
 20
-25.0471160788
 10
431.1957824175
 20
-24.5696490721
 10
435.5169758629
 20
-24.3152932585
 10
439.9048192218
 20
-24.2846519417
 10
444.3489050145
 20
-24.4777977997
 10
448.8386923604
 20
-24.8942727117
 10
453.36353198
 20
-25.5330888453
 10
457.9126914537
 20
-26.3927309993
 10
462.4753806778
 20
-27.4711601973
 10
467.0407774575
 20
-28.7658185245
 10
471.598053176
 20
-30.2736351944
 10
476.1363984789
 20
-31.9910338324
 10
480.6450489125
 20
-33.9139409587
 10
485.1133104561
 20
-36.0377956499
 10
489.530584887
 20
-38.3575603576
 10
493.8863949182
 20
-40.867732856
 10
498.1704090496
 20
-43.5623592933
 10
502.3724660729
 20
-46.4350483132
 10
506.4825991733
 20
-49.478986215
 10
510.4910595689
 20
-52.686953114
 10
514.3883396348
 20
-56.0513400674
 10
518.165195453
 20
-59.5641671208
 10
521.8126687389
 20
-63.2171022367
 10
525.3221080889
 20
-67.0014810565
 10
528.6851895005
 20
-70.9083274518
 10
531.8939361161
 20
-74.9283748146
 10
534.9407371434
 20
-79.0520880366
 10
537.8183659068
 20
-83.2696861257
 10
540.5199969889
 20
-87.5711654052
 10
543.0392224193
 20
-91.9463232415
 10
545.3700668734
 20
-96.3847822435
 10
547.507001846
 20
-100.8760148769
 10
549.4449587631
 20
-105.4093684341
 10
551.1793410052
 20
-109.9740903013
 10
552.7060348092
 20
-114.5593534625
 10
554.0214190261
 20
-119.1542821801
 10
555.1223737098
 20
-123.7479777909
 10
556.0062875174
 20
-128.3295445563
 10
556.6710639031
 20
-132.8881155062
 10
557.1151260907
 20
-137.4128782139
 10
557.3374208137
 20
-141.8931004422
 10
557.3374208137
 20
-146.318155599
 10
557.1151260907
 20
-150.6775479423
 10
556.6710639031
 20
-154.960937475
 10
556.0062875174
 20
-159.1581644705
 10
555.1223737098
 20
-163.2592735701
 10
554.0214190261
 20
-167.254537396
 10
552.7060348092
 20
-171.1344796239
 10
551.1793410052
 20
-174.8898974594
 10
549.4449587631
 20
-178.5118834664
 10
547.507001846
 20
-181.9918466942
 10
545.3700668734
 20
-185.3215330545
 10
543.0392224193
 20
-188.4930448992
 10
540.5199969889
 20
-191.4988597525
 10
537.8183659068
 20
-194.3318481536
 10
537.655583937
 20
-194.4913239402
  0
LWPOLYLINE
  5
CA
330
1F
100
AcDbEntity
  8
0
  6
Continuous
 62
     7
370
    25
100
AcDbPolyline
 90
       89
 70
   128
 43
0.0
 10
356.3721037887
 20
-97.5455342238
 10
356.8667579037
 20
-93.8631184595
 10
357.6413326852
 20
-89.7127196935
 10
358.6340613048
 20
-85.6633324654
 10
359.84258912
 20
-81.7245614741
 10
361.2640496363
 20
-77.9057490494
 10
362.8950713065
 20
-74.2159529923
 10
364.7317855273
 20
-70.6639250915
 10
366.7698358155
 20
-67.2580903648
 10
369.004388141
 20
-64.0065270757
 10
371.4301423925
 20
-60.9169475732
 10
374.0413449491
 20
-57.9966799986
 10
376.8318023266
 20
-55.2526509039
 10
379.7948958685
 20
-52.6913688229
 10
382.9235974443
 20
-50.3189088337
 10
386.2104861195
 20
-48.1408981494
 10
389.6477657574
 20
-46.1625027706
 10
393.2272835103
 20
-44.3884152327
 10
396.9405491576
 20
-42.8228434752
 10
400.7787552435
 20
-41.4695008613
 10
404.7327979671
 20
-40.3315973704
 10
408.7932987761
 20
-39.4118319836
 10
412.950626611
 20
-38.7123862829
 10
417.1949207496
 20
-38.2349192763
 10
421.516114195
 20
-37.9805634626
 10
425.9039575539
 20
-37.9499221459
 10
430.3480433466
 20
-38.1430680038
 10
434.8378306925
 20
-38.5595429158
 10
439.3626703121
 20
-39.1983590495
 10
443.9118297858
 20
-40.0580012034
 10
448.4745190099
 20
-41.1364304014
 10
453.0399157896
 20
-42.4310887287
 10
457.5971915081
 20
-43.9389053985
 10
462.135536811
 20
-45.6563040365
 10
466.6441872446
 20
-47.5792111628
 10
471.1124487882
 20
-49.7030658541
 10
475.5297232191
 20
-52.0228305617
 10
479.8855332503
 20
-54.5330030601
 10
484.1695473817
 20
-57.2276294974
 10
488.371604405
 20
-60.1003185174
 10
492.4817375054
 20
-63.1442564191
 10
496.490197901
 20
-66.3522233182
 10
500.3874779669
 20
-69.7166102715
 10
504.1643337851
 20
-73.2294373249
 10
507.811807071
 20
-76.8823724408
 10
511.321246421
 20
-80.6667512606
 10
514.6843278326
 20
-84.5735976559
 10
517.8930744482
 20
-88.5936450187
 10
520.9398754755
 20
-92.7173582407
 10
523.8175042389
 20
-96.9349563298
 10
526.519135321
 20
-101.2364356093
 10
529.0383607514
 20
-105.6115934456
 10
531.3692052055
 20
-110.0500524476
 10
533.5061401781
 20
-114.5412850811
 10
535.4440970952
 20
-119.0746386383
 10
537.1784793373
 20
-123.6393605054
 10
538.7051731413
 20
-128.2246236666
 10
540.0205573582
 20
-132.8195523842
 10
541.1215120419
 20
-137.413247995
 10
542.0054258495
 20
-141.9948147604
 10
542.6702022352
 20
-146.5533857103
 10
543.1142644228
 20
-151.0781484181
 10
543.3365591458
 20
-155.5583706464
 10
543.3365591458
 20
-159.9834258031
 10
543.1142644228
 20
-164.3428181464
 10
542.6702022352
 20
-168.6262076791
 10
542.0054258495
 20
-172.8234346747
 10
541.1215120419
 20
-176.9245437742
 10
540.0205573582
 20
-180.9198076001
 10
538.7051731413
 20
-184.799749828
 10
537.1784793373
 20
-188.5551676635
 10
535.4440970952
 20
-192.1771536705
 10
533.506140178
 20
-195.6571168983
 10
531.3692052055
 20
-198.9868032587
 10
529.0383607514
 20
-202.1583151033
 10
526.519135321
 20
-205.1641299566
 10
523.8175042389
 20
-207.9971183578
 10
520.9398754755
 20
-210.6505607713
 10
517.8930744482
 20
-213.118163525
 10
514.6843278326
 20
-215.3940737378
 10
511.321246421
 20
-217.472893202
 10
507.811807071
 20
-219.3496911875
 10
504.1643337851
 20
-221.020016137
 10
500.3874779669
 20
-222.4799062241
 10
496.490197901
 20
-223.7258987509
 10
492.4817375054
 20
-224.7550383607
 10
488.371604405
 20
-225.564884048
 10
484.1695473817
 20
-226.1535149485
 10
482.0981723458
 20
-226.359181347
  0
ENDSEC
  0
SECTION
  2
OBJECTS
  0
DICTIONARY
  5
C
330
0
100
AcDbDictionary
281
     1
  3
ACAD_GROUP
350
D
  3
ACAD_LAYOUT
350
1A
  3
ACAD_MLINESTYLE
350
17
  3
ACAD_PLOTSETTINGS
350
19
  3
ACAD_PLOTSTYLENAME
350
E
  3
ACAD_SCALELIST
350
47
  0
DICTIONARY
  5
D
102
{ACAD_REACTORS
330
C
102
}
330
C
100
AcDbDictionary
281
     1
  0
DICTIONARY
  5
1A
102
{ACAD_REACTORS
330
C
102
}
330
C
100
AcDbDictionary
281
     1
  3
Layout1
350
1E
  3
Layout2
350
26
  3
Model
350
22
  0
DICTIONARY
  5
17
102
{ACAD_REACTORS
330
C
102
}
330
C
100
AcDbDictionary
281
     1
  3
Standard
350
18
  0
DICTIONARY
  5
19
102
{ACAD_REACTORS
330
C
102
}
330
C
100
AcDbDictionary
281
     1
  0
ACDBDICTIONARYWDFLT
  5
E
102
{ACAD_REACTORS
330
C
102
}
330
C
100
AcDbDictionary
281
     1
  3
Normal
350
F
100
AcDbDictionaryWithDefault
340
F
  0
DICTIONARY
  5
47
102
{ACAD_REACTORS
330
C
102
}
330
C
100
AcDbDictionary
281
     1
  3
A0
350
48
  3
A1
350
49
  3
A2
350
4A
  3
A3
350
4B
  3
A4
350
4C
  3
A5
350
4D
  3
A6
350
4E
  3
A7
350
4F
  3
A8
350
50
  3
A9
350
51
  3
B0
350
52
  3
B1
350
53
  3
B2
350
54
  3
B3
350
55
  3
B4
350
56
  3
B5
350
57
  3
B6
350
58
  3
B7
350
59
  3
B8
350
5A
  3
B9
350
5B
  3
C0
350
5C
  3
C1
350
5D
  3
C2
350
5E
  3
C3
350
5F
  3
C4
350
60
  3
C5
350
61
  3
C6
350
62
  3
C7
350
63
  3
C8
350
64
  3
C9
350
65
  3
D0
350
66
  3
D1
350
67
  3
D2
350
68
  0
LAYOUT
  5
1E
102
{ACAD_REACTORS
330
1A
102
}
330
1A
100
AcDbPlotSettings
  1

  2
none_device
  4

  6

 40
0.0
 41
0.0
 42
0.0
 43
0.0
 44
0.0
 45
0.0
 46
0.0
 47
0.0
 48
0.0
 49
0.0
140
0.0
141
0.0
142
1.0
143
1.0
 70
   688
 72
     1
 73
     0
 74
     5
  7

 75
    16
147
1.0
148
0.0
149
0.0
100
AcDbLayout
  1
Layout1
 70
     1
 71
     1
 10
0.0
 20
0.0
 11
420.0
 21
297.0
 12
0.0
 22
0.0
 32
0.0
 14
1.0000000000E+20
 24
1.0000000000E+20
 34
1.0000000000E+20
 15
-1.0000000000E+20
 25
-1.0000000000E+20
 35
-1.0000000000E+20
146
0.0
 13
0.0
 23
0.0
 33
0.0
 16
1.0
 26
0.0
 36
0.0
 17
0.0
 27
1.0
 37
0.0
 76
     0
330
1B
  0
LAYOUT
  5
26
102
{ACAD_REACTORS
330
1A
102
}
330
1A
100
AcDbPlotSettings
  1

  2
none_device
  4

  6

 40
0.0
 41
0.0
 42
0.0
 43
0.0
 44
0.0
 45
0.0
 46
0.0
 47
0.0
 48
0.0
 49
0.0
140
0.0
141
0.0
142
1.0
143
1.0
 70
   688
 72
     1
 73
     0
 74
     5
  7

 75
    16
147
1.0
148
0.0
149
0.0
100
AcDbLayout
  1
Layout2
 70
     1
 71
     2
 10
0.0
 20
0.0
 11
0.0
 21
0.0
 12
0.0
 22
0.0
 32
0.0
 14
0.0
 24
0.0
 34
0.0
 15
0.0
 25
0.0
 35
0.0
146
0.0
 13
0.0
 23
0.0
 33
0.0
 16
1.0
 26
0.0
 36
0.0
 17
0.0
 27
1.0
 37
0.0
 76
     0
330
23
  0
LAYOUT
  5
22
102
{ACAD_REACTORS
330
1A
102
}
330
1A
100
AcDbPlotSettings
  1

  2
none_device
  4
Letter_(8.50_x_11.00_Inches)
  6

 40
6.35
 41
6.35
 42
6.35000508
 43
6.35000508
 44
215.9
 45
279.4
 46
0.0
 47
0.0
 48
0.0
 49
0.0
140
0.0
141
0.0
142
1.0
143
1.0
 70
  1712
 72
     1
 73
     0
 74
     0
  7

 75
     0
147
1.0
148
0.0
149
0.0
100
AcDbLayout
  1
Model
 70
     1
 71
     0
 10
0.0
 20
0.0
 11
279.4
 21
215.9
 12
0.0
 22
0.0
 32
0.0
 14
0.0
 24
0.0
 34
0.0
 15
279.4
 25
215.9
 35
0.0
146
0.0
 13
0.0
 23
0.0
 33
0.0
 16
1.0
 26
0.0
 36
0.0
 17
0.0
 27
1.0
 37
0.0
 76
     0
330
1F
331
29
  0
MLINESTYLE
  5
18
102
{ACAD_REACTORS
330
17
102
}
330
17
100
AcDbMlineStyle
  2
Standard
 70
     0
  3

 62
   256
 51
90.0
 52
90.0
 71
     2
 49
0.5
 62
   256
  6
BYLAYER
 49
-0.5
 62
   256
  6
BYLAYER
  0
ACDBPLACEHOLDER
  5
F
102
{ACAD_REACTORS
330
E
102
}
330
E
  0
SCALE
  5
48
102
{ACAD_REACTORS
330
47
102
}
330
47
100
AcDbScale
 70
     0
300
1:1
140
1.0
141
1.0
290
     1
  0
SCALE
  5
49
102
{ACAD_REACTORS
330
47
102
}
330
47
100
AcDbScale
 70
     0
300
1:2
140
1.0
141
2.0
290
     0
  0
SCALE
  5
4A
102
{ACAD_REACTORS
330
47
102
}
330
47
100
AcDbScale
 70
     0
300
1:4
140
1.0
141
4.0
290
     0
  0
SCALE
  5
4B
102
{ACAD_REACTORS
330
47
102
}
330
47
100
AcDbScale
 70
     0
300
1:5
140
1.0
141
5.0
290
     0
  0
SCALE
  5
4C
102
{ACAD_REACTORS
330
47
102
}
330
47
100
AcDbScale
 70
     0
300
1:8
140
1.0
141
8.0
290
     0
  0
SCALE
  5
4D
102
{ACAD_REACTORS
330
47
102
}
330
47
100
AcDbScale
 70
     0
300
1:10
140
1.0
141
10.0
290
     0
  0
SCALE
  5
4E
102
{ACAD_REACTORS
330
47
102
}
330
47
100
AcDbScale
 70
     0
300
1:16
140
1.0
141
16.0
290
     0
  0
SCALE
  5
4F
102
{ACAD_REACTORS
330
47
102
}
330
47
100
AcDbScale
 70
     0
300
1:20
140
1.0
141
20.0
290
     0
  0
SCALE
  5
50
102
{ACAD_REACTORS
330
47
102
}
330
47
100
AcDbScale
 70
     0
300
1:30
140
1.0
141
30.0
290
     0
  0
SCALE
  5
51
102
{ACAD_REACTORS
330
47
102
}
330
47
100
AcDbScale
 70
     0
300
1:40
140
1.0
141
40.0
290
     0
  0
SCALE
  5
52
102
{ACAD_REACTORS
330
47
102
}
330
47
100
AcDbScale
 70
     0
300
1:50
140
1.0
141
50.0
290
     0
  0
SCALE
  5
53
102
{ACAD_REACTORS
330
47
102
}
330
47
100
AcDbScale
 70
     0
300
1:100
140
1.0
141
100.0
290
     0
  0
SCALE
  5
54
102
{ACAD_REACTORS
330
47
102
}
330
47
100
AcDbScale
 70
     0
300
2:1
140
2.0
141
1.0
290
     0
  0
SCALE
  5
55
102
{ACAD_REACTORS
330
47
102
}
330
47
100
AcDbScale
 70
     0
300
4:1
140
4.0
141
1.0
290
     0
  0
SCALE
  5
56
102
{ACAD_REACTORS
330
47
102
}
330
47
100
AcDbScale
 70
     0
300
8:1
140
8.0
141
1.0
290
     0
  0
SCALE
  5
57
102
{ACAD_REACTORS
330
47
102
}
330
47
100
AcDbScale
 70
     0
300
10:1
140
10.0
141
1.0
290
     0
  0
SCALE
  5
58
102
{ACAD_REACTORS
330
47
102
}
330
47
100
AcDbScale
 70
     0
300
100:1
140
100.0
141
1.0
290
     0
  0
SCALE
  5
59
102
{ACAD_REACTORS
330
47
102
}
330
47
100
AcDbScale
 70
     0
300
1/128" = 1'-0"
140
0.0078125
141
12.0
290
     0
  0
SCALE
  5
5A
102
{ACAD_REACTORS
330
47
102
}
330
47
100
AcDbScale
 70
     0
300
1/64" = 1'-0"
140
0.015625
141
12.0
290
     0
  0
SCALE
  5
5B
102
{ACAD_REACTORS
330
47
102
}
330
47
100
AcDbScale
 70
     0
300
1/32" = 1'-0"
140
0.03125
141
12.0
290
     0
  0
SCALE
  5
5C
102
{ACAD_REACTORS
330
47
102
}
330
47
100
AcDbScale
 70
     0
300
1/16" = 1'-0"
140
0.0625
141
12.0
290
     0
  0
SCALE
  5
5D
102
{ACAD_REACTORS
330
47
102
}
330
47
100
AcDbScale
 70
     0
300
3/32" = 1'-0"
140
0.09375
141
12.0
290
     0
  0
SCALE
  5
5E
102
{ACAD_REACTORS
330
47
102
}
330
47
100
AcDbScale
 70
     0
300
1/8" = 1'-0"
140
0.125
141
12.0
290
     0
  0
SCALE
  5
5F
102
{ACAD_REACTORS
330
47
102
}
330
47
100
AcDbScale
 70
     0
300
3/16" = 1'-0"
140
0.1875
141
12.0
290
     0
  0
SCALE
  5
60
102
{ACAD_REACTORS
330
47
102
}
330
47
100
AcDbScale
 70
     0
300
1/4" = 1'-0"
140
0.25
141
12.0
290
     0
  0
SCALE
  5
61
102
{ACAD_REACTORS
330
47
102
}
330
47
100
AcDbScale
 70
     0
300
3/8" = 1'-0"
140
0.375
141
12.0
290
     0
  0
SCALE
  5
62
102
{ACAD_REACTORS
330
47
102
}
330
47
100
AcDbScale
 70
     0
300
1/2" = 1'-0"
140
0.5
141
12.0
290
     0
  0
SCALE
  5
63
102
{ACAD_REACTORS
330
47
102
}
330
47
100
AcDbScale
 70
     0
300
3/4" = 1'-0"
140
0.75
141
12.0
290
     0
  0
SCALE
  5
64
102
{ACAD_REACTORS
330
47
102
}
330
47
100
AcDbScale
 70
     0
300
1" = 1'-0"
140
1.0
141
12.0
290
     0
  0
SCALE
  5
65
102
{ACAD_REACTORS
330
47
102
}
330
47
100
AcDbScale
 70
     0
300
1-1/2" = 1'-0"
140
1.5
141
12.0
290
     0
  0
SCALE
  5
66
102
{ACAD_REACTORS
330
47
102
}
330
47
100
AcDbScale
 70
     0
300
3" = 1'-0"
140
3.0
141
12.0
290
     0
  0
SCALE
  5
67
102
{ACAD_REACTORS
330
47
102
}
330
47
100
AcDbScale
 70
     0
300
6" = 1'-0"
140
6.0
141
12.0
290
     0
  0
SCALE
  5
68
102
{ACAD_REACTORS
330
47
102
}
330
47
100
AcDbScale
 70
     0
300
1'-0" = 1'-0"
140
12.0
141
12.0
290
     0
  0
ENDSEC
  0
EOF
